Contact Info / Websites

All 3 audio Reviews


Homecoming Homecoming

Rated 5 / 5 stars

Goddamn. You just gave me an intense dopamine rush at the drop, which I surfed on for the rest of the song. Felt fucking good.


People find this review helpful!

Lonely Universe Lonely Universe

Rated 5 / 5 stars

I could listen to this for hours. Thusly, I desire to play it for hours. Do you have tabs? In the very least, what tuning was this in?

This is the epitome of relaxing. Have you ever looked into ambient guitar music?

A personal favorite of my is the brian eno track "evening star". Consists of primarily electric guitar.


BombFiglio responds:

Means a lot to me, man. Admittedly, I kind of forgot how to play most of the song. Most of the instruments (electric and bass guitar and the violins) I played while making this song was improvised. As cheesy as it sounds, I "felt" the music so to speak. However, I do remember my two favorite parts. The rhythm guitar is:
e|--------------------------------------------------------------------------------------------------|
B|--------------------0----------------------------------0---------0~----1h2-1----1h2-1----|
G|------------------------1---------------------------------1------1~-------------2----------2-|
D|-----2----2----2---------2-------2------2-------2--------2---2~---------------------------|
A|-4-----4----4-----------------4------4-------4-----------------4~---------------------------|
E|--------------------------------------------------------------------------------------------------|

The lead guitar is played like:

e|-------------------------------------------------------------------------------------------------|
B|-------------------------------------------------------------------------------------------------|
G|-4--------------------4-------------------4/6--4~--4/6-4~--4/6-4/2-1h2h4/2/1-------|
D|----2~----1--2~-------2~------1---2-------------------------------------------------------|
A|-------------------------------------------------------------------------------------------------|
E|-------------------------------------------------------------------------------------------------|

Almost as easy as Dammit by Blink 182! I'd tab the timing in as well, but it's going to be a pain trying to fit it :( The song is in 6/4, and I tried to tab in the holds. Happy guitar playing :)

Also, I haven't really had time to compose ambient guitar music like this. I have another guitar based song in my mind, but time is not on my side. Maybe I'll make it before the year ends.


Sonic 2 Chemical Plant Metal Sonic 2 Chemical Plant Metal

Rated 5 / 5 stars

awesome!

If this was a remix made in sonic adventure/sonic adventure 2, it would totally fit.